Sammy Johns - Bayou Bay

Аккорды Sammy Johns — Bayou Bay

    	    	Вступление

Tabbed by: 6METAL6BASSIST6
E-mail: [email protected]

Tuning: EADG

G|----------------------------------------------------------------|
D|--------------------------------7-------------------------------|
A|7-----------------------------------------------7---------------|
E|----------------------------------------------------------------|

G|----------------------------------------------------------------|
D|----------------------------------------------------------------|
A|----------------------------------------------------------------|
E|5---------------------------------------------------------------|

0:04

G|----------------------------------------------------------------|
D|7-------------------------------7-------------------------------|
A|----------------7-------------------------------4-------7-------|
E|----------------------------------------------------------------|

G|----------------------------------------------------------------|
D|7-------------------------------7-----------5---4---------------|
A|----------------7---------------------------------------7-------|
E|----------------------------------------------------------------|

G|----------------------------------------------------------------|
D|------------------------------------------------4-------6-------|
A|5-------------------------------5-------------------------------|
E|----------------5-----------------------------------------------|

G|----------------------------------------------------------------|
D|7-------------------------------7-------------------------------|
A|----------------7-------------------------------4-------5-------|
E|----------------------------------------------------------------|

0:14

G|----------------------------------------------------------------|
D|----------------------------------------------------------------|
A|7-------------------------------7---------------7-------8-------|
E|----------------7---------------------------7-------------------|

G|----------------------------------------------------------------|
D|------------------------------------------------11------10------|
A|9-------------------------------9-------------------------------|
E|----------------9-----------------------------------------------|

G|----------------------------------------------------------------|
D|9---------------------------------------------------------------|
A|----------------9-------------------------------9-----------9---|
E|--------------------------------7-----------------------7-------|

G|----------------------------------------------------------------|
D|----------------9---------------------------------------9-------|
A|7-------------------------------7-------------------9-----------|
E|----------------------------------------------------------------|

0:24

G|----------------------------------------------------------------|
D|7-------------------------------7-----------7-------------------|
A|----------------7-------------------------------4-------7-------|
E|----------------------------------------------------------------|

G|----------------------------------------------------------------|
D|7-------------------------------7-----------5---4---------------|
A|----------------7---------------------------------------7-------|
E|----------------------------------------------------------------|

G|----------------------------------------------------------------|
D|------------------------------------------------4-------6-------|
A|5-------------------------------5-------------------------------|
E|----------------5-----------------------------------------------|

G|----------------------------------------------------------------|
D|7-------------------------------7-----------5---4---------------|
A|----------------7---------------------------------------7-------|
E|----------------------------------------------------------------|

0:34

G|----------------------------------------------------------------|
D|------------------------------------------------4-------6-------|
A|5-------------------------------5-------------------------------|
E|----------------5-----------------------------------------------|

G|--------9-------------------------------5-------6---------------|
D|7---------------6-------5-------4-------------------4-----------|
A|--------------------7-----------------------------------4-------|
E|----------------------------------------------------------------|

G|----------------------------------------------------------------|
D|----------------4-----------------------------------------------|
A|2-------------------------------2-----------2---4-------6-------|
E|----------------------------------------------------------------|

G|----------------------------------------------------------------|
D|----------------------------------------------------------------|
A|7---------------------------------------------------------------|
E|----------------------------------------------------------------|

0:44

G|----------------------------------------------------------------|
D|----------------------------------------------------------------|
A|--------------------------------5---------------5-----------7---|
E|5---------------5-----------------------------------------------|

G|----------------------------------------------------------------|
D|7-------------------------------7---4---------------------------|
A|----------------7-----------------------4-------5-------6-------|
E|----------------------------------------------------------------|

G|----------------------------------------------------------------|
D|------------------------------------------------4-------6-------|
A|7-------------------------------7-------7-----------------------|
E|----------------7-------------------7---------------------------|

G|----------------------------------------------------------------|
D|7-------------------------------5---6---7-----------------------|
A|----------------7-----------7-------------------4-------7-------|
E|----------------------------------------------------------------|

0:54

G|----------------------------------------------------------------|
D|7-------------------------------7-----------5---4---------------|
A|----------------7---------------------------------------7-------|
E|----------------------------------------------------------------|

G|----------------------------------------------------------------|
D|------------------------------------------------4-------6-------|
A|5-------------------------------5-------------------------------|
E|----------------5-----------------------------------------------|

G|----------------------------------------------------------------|
D|7---------------6-------4-----------------------4-------6-------|
A|--------------------------------7-------------------------------|
E|----------------------------------------------------------------|

1:02

G|----------------------------------------------------------------|
D|7---------------------------------------------------------------|
A|--------------------------------5-------------------------------|
E|----------------------------------------------------------------|

G|----------------------------------------------------------------|
D|7---------------------------------------------------------------|
A|--------------------------------7-------------------------------|
E|----------------------------------------------------------------|

G|----------------9-----------------------------------------------|
D|7---------------------------------------------------------------|
A|----------------------------------------------------------------|
E|--------------------------------5-------------------------------|

1:09

G|----------------------------------------------------------------|
D|7-------------------------------7-------------------------------|
A|----------------7-------------------------------4-------7-------|
E|----------------------------------------------------------------|

G|----------------------------------------------------------------|
D|7-------------------------------7-----------5---4---------------|
A|----------------7---------------------------------------7-------|
E|----------------------------------------------------------------|

G|----------------------------------------------------------------|
D|------------------------------------------------4-------6-------|
A|5-------------------------------5-------------------------------|
E|----------------5-----------------------------------------------|

G|----------------------------------------------------------------|
D|7-------------------------------7-------------------------------|
A|----------------7-------------------------------4-------5-------|
E|----------------------------------------------------------------|

1:19

G|----------------------------------------------------------------|
D|----------------------------------------------------------------|
A|7-------------------------------7---------------7-------8-------|
E|----------------7---------------------------7-------------------|

G|----------------------------------------------------------------|
D|------------------------------------------------9/11----10------|
A|9-------------------------------9-------------------------------|
E|----------------9-----------------------------------------------|

G|----------------------------------------------------------------|
D|9---------------------------------------------------------------|
A|----------------9-------------------------------9---------------|
E|--------------------------------7-----------------------7-------|

G|----------------------------------------------------------------|
D|----------------9-------------------------------9---------------|
A|7-------------------------------7-----------9-----------7-------|
E|----------------------------------------------------------------|

1:29

G|----------------------------------------------------------------|
D|7-------------------------------7-------------------------------|
A|----------------7-------------------------------4-------7-------|
E|----------------------------------------------------------------|

G|----------------------------------------------------------------|
D|7-------------------------------7-----------5---4---------------|
A|----------------7---------------------------------------7-------|
E|----------------------------------------------------------------|

G|----------------------------------------------------------------|
D|------------------------------------------------4-------6-------|
A|5-------------------------------5-------------------------------|
E|----------------5-----------------------------------------------|

G|----------------------------------------------------------------|
D|7-------------------------------7-----------5---4---------------|
A|----------------7---------------------------------------7-------|
E|----------------------------------------------------------------|

1:39

G|----------------------------------------------------------------|
D|------------------------------------------------4-------6-------|
A|5-------------------------------5-------------------------------|
E|----------------5-----------------------------------------------|

G|--------9-------------------------------5-------6---------------|
D|7---------------6-------5-------4-------------------4-----------|
A|--------------------7-----------------------------------4-------|
E|----------------------------------------------------------------|

G|----------------------------------------------------------------|
D|----------------4-----------------------------------------------|
A|2-------------------------------2-----------2---4-------6-------|
E|----------------------------------------------------------------|

G|----------------------------------------------------------------|
D|----------------------------------------------------------------|
A|7-----------------------7---7-------------------7-------9-------|
E|----------------7---9---------------7---9-----------------------|

1:49

G|----------------------------------------------------------------|
D|7-------------------------------7-------------------------------|
A|----------------7-------------------------------4-------7-------|
E|----------------------------------------------------------------|

G|----------------------------------------------------------------|
D|7-------------------------------7-----------5---4---------------|
A|----------------7---------------------------------------7-------|
E|----------------------------------------------------------------|

G|----------------------------------------------------------------|
D|------------------------------------------------4-------6-------|
A|5-------------------------------5-------------------------------|
E|----------------5-----------------------------------------------|

G|----------------------------------------------------------------|
D|7-------------------------------7-----------5---4---------------|
A|----------------7---------------------------------------7-------|
E|----------------------------------------------------------------|

1:59

G|----------------------------------------------------------------|
D|------------------------------------------------4-------6-------|
A|5-------------------------------5-------------------------------|
E|----------------5-----------------------------------------------|

G|--------9-------------------------------6-----------------------|
D|7---------------6-------5-------4---------------4---------------|
A|--------------------7-----------------------------------4-------|
E|----------------------------------------------------------------|

G|----------------------------------------------------------------|
D|----------------4-----------------------------------------------|
A|2-------------------------------2-------2---2---4-------6-------|
E|----------------------------------------------------------------|

G|----------------------------------------------------------------|
D|----------------------------------------------------------------|
A|7---------------------------------------------------------------|
E|----------------------------------------------------------------|

2:09

G|----------------------------------------------------------------|
D|----------------------------------------------------------------|
A|--------------------------------5---------------5-----------7---|
E|5---------------5-----------------------------------------------|

G|----------------------------------------------------------------|
D|7-------------------------------7---4---------------------------|
A|----------------7-----------------------4-------5-------6-------|
E|----------------------------------------------------------------|

G|----------------------------------------------------------------|
D|------------------------------------------------4-------6-------|
A|7-------------------------------7-------7-----------------------|
E|----------------7-----------7-------7---------------------------|

G|----------------------------------------------------------------|
D|7-------------------------------5---6---7-----------------------|
A|----------------7-----------7-------------------4---5---7-------|
E|----------------------------------------------------------------|

2:19

G|----------------------------------------------------------------|
D|7-------------------------------7-----------5---4---------------|
A|----------------7---------------------------------------7-------|
E|----------------------------------------------------------------|

G|----------------------------------------------------------------|
D|------------------------------------------------4-------6-------|
A|5-------------------------------5-------------------------------|
E|----------------5-----------------------------------------------|

G|----------------------------------------------------------------|
D|7---------------6-------4-----------------------4-------6-------|
A|--------------------------------7-------------------------------|
E|----------------------------------------------------------------|

2:27

G|----------------------------------------------------------------|
D|7---------------------------------------------------------------|
A|--------------------------------5-------------------------------|
E|----------------------------------------------------------------|

G|----------------------------------------------------------------|
D|7---------------------------------------------------------------|
A|--------------------------------7-------------------------------|
E|----------------------------------------------------------------|

G|----------------9---------------9-------------------|
D|7-----------------------------------------------7---|
A|----------------------------------------7-----------|
E|----------------------------------------------------|		
    

Клип