Static Animal - Majorca

Аккорды Static Animal — Majorca

    	    	Вступление

Static Animal - Majorca

Chords played throughout full song:

e|---2---------------2-------|
B|---2---------------3-------|
G|---2---------------4-------|
D|---4---------------4-------|
A|---5---------------2-------|
E|---------------------------|


Solo:

e|-12--------10-------------------------------10---------|
B|---------------12-------------------------------12-----|
G|--------------------------12--11-----------------------|
D|-------------------------------------------------------|
A|-------------------------------------------------------|
E|-------------------------------------------------------|

e|-12--------17-------------------------------10--12-----|
B|---------------12--------------------------------------|
G|--------------------------12--11-----------------------|
D|-------------------------------------------------------|
A|-------------------------------------------------------|
E|-------------------------------------------------------|


There are also some fills played in the outro jam but they're hard to hear.
I would appreciate if someone could figure them out and add them!		
    

Клип